Září 2007

Revolution

23. září 2007 v 12:51

ryan lisa jess

23. září 2007 v 12:51

jess s jej chlapcom

22. září 2007 v 20:55


milucka foto

22. září 2007 v 20:19

Lisa na koncerte

22. září 2007 v 20:18

Hook me up fotos

22. září 2007 v 20:18
dscf7656fh9.jpg01~16.jpg

Lisa & Ryan Cabrera

20. září 2007 v 16:54



lisa2590f845a09f7a3cc9ea56dab.jpg
lisa27527933.jpg
unk6a8030c102a2955a15792d.jpg
www.jess-lisa-4ever.blog.cz


Live At The Chapel

20. září 2007 v 16:45 koncertne fotky a vystupenia
ttp://veronicasecret.blog.cz/



tot je uzansaaa stranka na akordy

18. září 2007 v 16:01 akordy
http://www.e-chords.com/tabs.asp?search=the+veronicas&tipo=1&view=&totalchords=

Leave Me Alone akordy

17. září 2007 v 15:39 akordy

G                      F#m 
Before I go my own way, I just gotta say


Chorus:
Bm
Leave me alone
G
Get out of my face
D
I'm tired in love
A
Feeling so misplaced
Bm
Time for you to go
G Em A
You still know I'm better off on my own, oh
Bm
Leave me alone
G
This isn't gonna work
D
Don't call me on the phone
A
Because I'm all out of words
Bm
I'll face the unknown
G Em
Thinking about all the ways that I've grown
A G
Oh, Leave Me Alone
Bm
Leave me alone
A
Leave me alone


display solos and tips
Small riff
e|------|
B|------|
G|--14--|
D|------|
A|------|
E|------|

Slide up to the 14 fret and then slide down


Verse 2

Esus Bm A Em

e|--------------------000----|
B|----------------222-000----|
G|-2-444-2-44-24--222-000----|
D|-2-444-2-44-24--222-222----|
A|-2-222-2-22-22--000-222----|
E|--------------------000----|


There was the time I thought you were the one
Having some fun
Getting it done
What an illusion
'Cause you were trying to take control of me
That couldn't be, I need to be free of this confusion

G F#m
Don't give me a guilt trip, cause I'm so over it


Chorus:
Bm
Leave me alone
G
Get out of my face
D
I'm tired in love
A
Feeling so misplaced
Bm
Time for you to go
G Em A
You still know I'm better off on my own, oh
Bm
Leave me alone
G
This isn't gonna work
D
Don't call me on the phone
A
Because I'm all out of words
Bm
I'll face the unknown
G Em
Thinking about all the ways that I've grown
A G
Oh, Leave Me Alone
Bm
Leave me alone

A
Leave me alone


Small riff again
e|------|
B|------|
G|--14--|

Bridge:
G Bm
Don't turn around and don't look back
G#/E A
I see right through all your selfless acts

G#/E is played like this:

display solos and tips
D|-6666666----|
A|-7777777----|
E|-4444444----|



Then Chorus chord progression during the synthesizer solo
Bm, G, D, A
Bm, G, Em (Em is Strummed downwards twice then pause and strum A once)


Chorus x2:
Bm
Leave me alone
G
Get out of my face
D
I'm tired in love
A
Feeling so misplaced
Bm
Time for you to go
G Em A
You still know I'm better off on my own, oh
Bm
Leave me alone
G
This isn't gonna work
D
Don't call me on the phone
A
Because I'm all out of words
Bm
I'll face the unknown
G Em
Thinking about all the ways that I've grown
A G
Oh, Leave Me Alone
Bm
Leave me alone
A
Leave me alone


(The last leave me alones are repeated quite a few times)
(The chord progression is G, Bm then A)

Thanks BrianLt.

Cry akordi

17. září 2007 v 15:37 akordy

D 
All my life you?ve had an opinion
E G D
Doing things for the wrong reasons, well not today
D
Don?t you know I think for myself
E
I get on fine without
G D
Anybody?s help, don?t care what you say


Bm G
I?m breaking your heart
D
But I?m breaking apart
A
All you do is hold me down
Bm G D
Trying to make me someone I don?t know
A
I?m not the girl you thought you found


Chorus:
D E
What would you do
G
If I told you
D
You can?t control my life
D E
What would you say
G
If I left today
D
With no regrets and no good bye
D E
What would you do
G
If I told you
D
there is no more you and I
D E
What would you say
G
if I walked away
D
and left you there to cry



Bm G D
I don?t know whats coming over you
A
Or how we fell apart
Bm G D
I tried so hard but I don?t believe in you
A
You?re not the guy I thought I knew



Chorus:
D E
What would you do
G
If I told you
D
You can?t control my life
D E
What would you say
G
If I left today
D
With no regrets and no good bye
D E
What would you do
G
If I told you
D

Everything I'm Not Akordy a Taby

17. září 2007 v 15:36 akordy

Intro/Verse 
e|------------------------------------------------------------------|
B|------------------------------------------------------------------|
G|------------------------------------------------------------------|
D|---------------7-7-7-7-7-7-7-7-0-9-9-9-9-9-9-9-9-9-9-9-9-9-9-9-9--|
A|-7-7-7-7-7-7-7-9-9-9-9-9-9-9-9-0-7-7-7-7-7-7-7-7------------------|
E|-5-5-5-5-5-5-5-----------------------------------9-9-9-9-7-7-7-7--|

Background guitar on ?Coz you?re so perfect?
e|--------------------------------------------------------|
B|--------------------------------------------------------|
G|--------------------------------------------------------|
D|--------------------------------------------------------|
A|---10----10----9----7----7------------------------------|
E|-9----10----10---10---10---10---------------------------|


Chorus
F#m Dsus2
I was losing myself to somebody else
A E
But now I see
F#m Dsus2
I don?t wanna pretend so this is the end
A Em
Of you and me
F#m Dsus2
Coz the girl, that you want
A E
She was tearing us apart
Bm D
Coz she?s everything, everything I?m not

Verse
e|------------------------------------------------------------------|
B|------------------------------------------------------------------|
G|------------------------------------------------------------------|
D|---------------7-7-7-7-7-7-7-7-0-9-9-9-9-9-9-9-9-9-9-9-9-9-9-9-9--|
A|-7-7-7-7-7-7-7-9-9-9-9-9-9-9-9-0-7-7-7-7-7-7-7-7------------------|
E|-5-5-5-5-5-5-5-----------------------------------9-9-9-9-7-7-7-7--|

Background guitar on ?Like you?re so perfect?
e|--------------------------------------------------------|
B|--------------------------------------------------------|
G|--------------------------------------------------------|
D|--------------------------------------------------------|
A|---10----10----9----7----7------------------------------|
E|-9----10----10---10---10---10---------------------------|


Chorus
F#m Dsus2
I was losing myself to somebody else
A E
But now I see
F#m Dsus2
I don?t wanna pretend so this is the end
A Em
Of you and me
F#m Dsus2
Coz the girl, that you want
A E
She was tearing us apart
Bm D
Coz she?s everything, everything I?m not


Bridge
F#m
Now wait a minute
Dsus2
Because of you
F#m Dsus2 A
I never knew all the things that I had
F#
Hey don?t you get it
Dsus2 Dsus2
I?m not going anywhere with you tonight
E
Coz this is my life

Play this again
e|------------------------------------------------------------------|
B|------------------------------------------------------------------|
G|------------------------------------------------------------------|
D|---------------7-7-7-7-7-7-7-7-0-9-9-9-9-9-9-9-9-9-9-9-9-9-9-9-9--|
A|-7-7-7-7-7-7-7-9-9-9-9-9-9-9-9-0-7-7-7-7-7-7-7-7------------------|
E|-5-5-5-5-5-5-5-----------------------------------9-9-9-9-7-7-7-7--|


Chorus
F#m Dsus2
I was losing myself to somebody else
A E
But now I see
F#m Dsus2
I don?t wanna pretend so this is the end
A Em
Of you and me
F#m Dsus2
Coz the girl, that you want
A E
She was tearing us apart
Bm D
Coz she?s everything, everything I?m not

4ever Taby

17. září 2007 v 15:35 akordy
Guitar 1: 
INTRO
e|--------------------|
B|--------------------|
G|-----4--------------|
D|-3-3----3-3-3-3-333-|
A|--------------------|
E|--------------------|

VERSE
e|--------------------|
B|--------------------|
G|-----4--------------|
D|-3-3----3-3-3-3-333-| x3
A|--------------------|
E|--------------------|

e|--------------------|
B|--------------------|
G|------4-------------|
D|-3-3----3-4-444-----|
A|----------------4-4-|
E|--------------------|

REPEAT VERSE

Chorus
e|--------------| |-------------------------|
B|--------------| |-------------------------|
G|----6-----8---| |----6--10--10----6-----8-|
D|-3--6--6--8---| x2 |-8--6--10--10-8--6--6--8-|
A|-3--4--6--6---| |-8--4--8---8--8--4--6--6-|
E|-1-----4------| |-6------------6-----4----|


VERSE

Chorus

BRIDGE
e|---------------------------|
B|---------------------------|
G|-6-x--10--6-x--10--5--6--6-|
D|-6-x--10--6-x--10--5--6--6-|
A|-4-x--8---4-x--8---3--4--4-|
E|---------------------------|

e|-------------------|
B|-------------------|
G|-------------------|
D|-------------------| x4
A|-----2-------------|
E|-1-1---1-1-1-1-111-|

REPEAT Chorus x2

----------------------------------------------------

Guitar 2:

INTRO no guitar 2

VERSE {second half}
e|-----------|
B|-{rest}-9--|
G|-----------|
D|-----------| x4
A|-----------|
E|-----------|

Chorus
e|--------------| |-------------------------|
B|--------------| |-------------------------|
G|----6-----8---| |----6-----10-----6-----8-|
D|-3--6--6--8---| x2 |-8--6--3--10--8--6--6--8-|
A|-3--4--6--6---| |-8--4--3--8---8--4--6--6-|
E|-1-----4------| |-6-----1------6-----4----|

VERSE
e|----------|
B|----------|
G|-{rest}-9-|
D|----------| x4
A|----------|
E|----------|

e|----------------------|
B|-9-9-99-8-8-6-6-6-666-|
G|----------------------|
D|----------------------| x3
A|----------------------|
E|----------------------|

e|------------------|
B|-9-9-77-----------|
G|--------3-3-3-333-|
D|------------------|
A|------------------|
E|------------------|

Chorus

BRIDGE
e|-------------------------|
B|-------------------------|
G|-6-x-----6-x-----5--6--6-|
D|-6-x--3--6-x--3--5--6--6-|
A|-4-x--3--4-x--3--3--4--4-|
E|------1-------1----------|

No guitar 2
e|-------------------|
B|-------------------|
G|-------------------|
D|-------------------| x2
A|-------------------|
E|-------------------|

e|--------------------|
B|--------------------|
G|-----4--------------|
D|-3-3----3-3-3-3-333-| x2
A|--------------------|
E|--------------------|

REPEAT Chorus x2

When It All Falls Apart akordy

17. září 2007 v 15:30 akordy

C            Em           D 
I'm having the day from hell,
C Em D
It was all going so well (before you came)
C Em D
And you told me you needed space,
C Em D
With a kiss on the side my face (not again)
C Em D
And not to mention (the tears, the shame)
C Em D
I should have kicked your ass instead
C
I need intervention
Em Am Em D
Attention to stop temptation to scream

Cause baby
Gadd9 Em
Everything is fd up straight from the heart
Am D
Tell me what do you do, when it all falls apart
Gadd9 Em
Gotta pick myself up where do I start
Am D
Cuz I can't turn to you when it all falls apart
No

C D

C Em D
Don't know where I parked my car
C Em D
Don't know who my real friends are (anymore)
C Em D
I put my faith in you
C Em D
What a stupid thing to do (when it rains it pours)
C Em D
And not to mention (I drank too much)
C Em D
I'm feeling hung over (and out of touch)
C
I need intervention
Em Am Em D(hold)
Attention to stop temptation to scream


repeat Chorus

C D
F
Can it be easier?
G
Can I just change my life?
Am C
Cause it just seems to go bad everytime
F
Will I be mending?
G Am C D
another one ending once again

repeat Chorus

4ever akordy

17. září 2007 v 15:28 akordy

Here we are so what you gonna do 
Do I gotta spell it out for you
I can see that you got other plans for tonight
But I don't really care

Size me up you know I beat the best
Tick tock on time to rest
Let them say what their gonna say
But tonight I just don't really care

CHORUS

Em C
Come on baby we aint gonna live forever
G D Em
Let me show you all the things that we could do
C G
You know I wanna be together
D Em
And I wanna spend the night with you
C G D
With you Yeah Yeah With you Yeah Yeah
Em
Come with me tonight
C G D
We could make the night last forever

VERSE:
Ive seen it all I've got nothing to prove
Come on baby just make your move
Follow me lets leave it all behind tonight
Like me just don't care

Let me take you on the ride of your life
That's what I said alright
They can say what they wanna say
cuz tonight I just don't even care

CHORUS

BRIDGE

C
Lets pretend your mine
Em
We could just pretend, we could just pretend, yeah yeah
C
You got what I like
Em
You got what I like, I got what you like
Bm
Oh come on
C
Just one taste and you'll want more
C
So tell me what your waiting for

INTRO

repeat CHORUS X 2

lisina pusinkaaaa

17. září 2007 v 15:15